Аккорды, Текст песни группы - слова песен и ноты, Табулатуры

0
1
2
3
4
5
6
7
8
9
A
B
C
D
E
F
G
H
I
J
K
L
M
N
O
P
Q
R
S
T
U
V
W
X
Y
Z
А
Б
В
Г
Д
Е
Ж
З
И
К
Л
М
Н
О
П
Р
С
Т
У
Ф
Х
Ц
Ч
Ш
Ы
Э
Ю
Я

Аккорды, табы и тексты песен AC-DC - слова песни Are You Ready

Are You Ready

Intro:		[E|--------0-----------0-----|--------0-----------0-----|
		B|-----------3-----------3--|-----3-----3-----3-----3--|
		G|-----2-----------2--------|--------------------------|
		D|--0-----------0-----------|--------------------------|
		A|--------------------------|--3-----------3-----------|
		E|--------------------------|--------------------------|

		|--------0-----------0-----|--------0-----------0-----|
		|-----3-----3-----3-----3--|-----3-----3-----3-----3--|
		|--------------------------|--------------------------|
		|--------------------------|--------------------------|
		|--2-----------2-----------|--3-----------3-----------|
		|--------------------------|--------------------------|

		|--------0-----------0-----|--------0-----------0-----|
		|-----------3-----------3--|-----3-----3-----3-----3--|
		|-----2-----------2--------|--------------------------|
		|--0-----------0-----------|--------------------------|
		|--------------------------|--3-----------3-----------|
		|--------------------------|--------------------------|

		|--------0-----------0-----|--------0-----------0-----|
		|-----3-----3-----3-----3--|-----3-----3-----3-----3--|
		|--------------------------|--------------------------|
		|--------------------------|--------------------------|
		|--2-----------2-----------|--3-----------3-----------|
		|--------------------------|--------------------------|

		|--------0-----------0-----|--------0-----------0-----|
		|-----------3-----------3--|-----3-----3-----3-----3--|
		|-----2-----------2--------|--------------------------|
		|--0-----------0-----------|--------------------------|
		|--------------------------|--------------------------|
		|--------------------------|--2-----------2-----------|

		|--------0-----------0-----|--------0-----------0-----|
		|-----3-----3-----3-----3--|-----3-----3-----3-----3--|
		|--------------------------|--------------------------|
		|--------------------------|--------------------------|
		|--------------------------|--------------------------|
		|--3-----------3-----------|--1-----------1-----------|

		|--------0-------------|------------------|
		|-----3-----3----------|------------------|
		|----------------------|------------------|
		|----------------------|------------------|
		|----------------------|------------------|
		|--1-------------------|------------------|]

!		Intro 2nd guitar:
		[E|--|--|--|--|--|--|--|--|-------------------|-------------------|
		B|--|--|--|--|--|--|--|--|-------------------|-------------------|
		G|--|--|--|--|--|--|--|--|-------------------|-------------------|
		D|--|--|--|--|--|--|--|--|--7----------------|-------------------|
		A|--|--|--|--|--|--|--|--|--5----------------|--5----------------|
		E|--|--|--|--|--|--|--|--|-------------------|--2----------------|

		|-------------------|-------------------|-------------------|
		|-------------------|-------------------|-------------------|
		|-------------------|-------------------|-------------------|
		|-------------------|-------------------|-------------------|
		|--5----------------|--3----------------|--3----------------|
		|--3----------------|--1----------------|--1----------------|]

!		verse riff:
		|-------------------------|---------------------|
		|-------------------------|---------------------|
		|--7--7--7--5--5--7----7--|-----------5---------|
		|--7--7--7--5--5--7----7--|------3----5----5----|
		|--5--5--5--3--3--5----5--|------3----3----5----|
		|-------------------------|------1---------3----|

		|-------------------------|---------------------|
		|-------------------------|---------------------|
		|--7--7--7--5--5--7----7--|-----------5---------|
		|--7--7--7--5--5--7----7--|------3----5----5----|
		|--5--5--5--3--3--5----5--|------3----3----5----|
		|-------------------------|------1---------3----|

!		Pre-chorus (2nd guitar as intro):
		 who all need it who
		|--------0-----------0-----|--------0-----------0-----|
		|-----------3-----------3--|-----3-----3-----3-----3--|
		|-----2-----------2--------|--------------------------|
		|--0-----------0-----------|--------------------------|
		|--------------------------|--------------------------|
		|--------------------------|--2-----------2-----------|
		 who all need it you
		|--------0-----------0-----|--------0-----------0-----|
		|-----3-----3-----3-----3--|-----3-----3-----3-----3--|
		|--------------------------|--------------------------|
		|--------------------------|--------------------------|
		|--------------------------|--------------------------|
		|--3-----------3-----------|--1-----------1-----------|
		 who all need it            who all need it
		|--------0-----------0-----|--------0-----------0-----|
		|-----------3-----------3--|-----3-----3-----3-----3--|
		|-----2-----------2--------|--------------------------|
		|--0-----------0-----------|--------------------------|
		|--------------------------|--------------------------|
		|--------------------------|--2-----------2-----------|
		 you all breathe it         we all need it
		|--------0-----------0-----|--------0-----------0-----|
		|-----3-----3-----3-----3--|-----3-----3-----3-----3--|
		|--------------------------|--------------------------|
		|--------------------------|--------------------------|
		|--------------------------|--------------------------|
		|--3-----------3-----------|--1-----------1-----------|

!		Chorus:
		 ready for a good time
		|------------------------|------------------------|
		|------------------------|------------------------|
		|------------------------|------------------------|
		|--7--7--7--5--5--7------|--5--5--5--5--5--5------|
		|--5--5--5--3--3--5------|--3--3--3--2--2--3------|
		|------------------------|------------------------|
		 ready for a night line
		|------------------------|------------------------|
		|------------------------|------------------------|
		|------------------------|------------------------|
		|--0--0--0--0--0--0------|--5--5--5--5--5--5------|
		|--2--2--2--0--0--2------|--3--3--3--2--2--3------|
		|------------------------|------------------------|
Текст песни/GTP tabs/Guitar Soft/Рингтоны/mp3/DJ/Кино