Аккорды, Текст песни группы - слова песен и ноты, Табулатуры

0
1
2
3
4
5
6
7
8
9
A
B
C
D
E
F
G
H
I
J
K
L
M
N
O
P
Q
R
S
T
U
V
W
X
Y
Z
А
Б
В
Г
Д
Е
Ж
З
И
К
Л
М
Н
О
П
Р
С
Т
У
Ф
Х
Ц
Ч
Ш
Ы
Э
Ю
Я

Аккорды, табы и тексты песен Rammstein - слова песни Bestrafe Mich

Intro
4|-4--4--4-5--4-----5--4-|
5|-2--2--2-3--2--22-3--2-|
6|-----------------------|

4|-------------------------------------------------------------|
5|------------------2------------------------------------------|
6|000-0-0-000-0-0-000-0-0-0-0-0-000-0-0-000-0-0-000-0-0-000000-|

4|-2-2-2-2-2-2-----------2-|
5|-2-2-2-2-2-2-----------2-|
6|-0-0-0-0-0-0-000000000-0-|


Riff a
6|-0-0-0-0-0-0-0-...-|
bestrafe mich
Stroh wird Gold
und Gold wird Stein
deine Grosse macht mich klein
du darfst mein Bestrafer sein
ja

Intro
Der Herrgott nimmt
der Herrgott gibt

Bestrafe mich
bestrafe mich
du meinst ja
und ich denk nein
schliess mich ein in dein Gebet
bevor der Wind noch kalter weht

Intro
Deine Grosse macht mich klein
du darfst mein Bestrafer sein
du darfst mein Bestrafer sein

Deine Grosse macht mich klein
du darfst mein Bestrafer sein
deine Grosse macht ihn klein
du darfst meine Strafe sein
Der Herrgott nimmt
der Herrgott gibt
doch gibt er nur dem
den er auch liebt
bestrafe mich

Аккорды, табулатуры, табы, переборы, тексты песен

 

Текст песни/GTP tabs/Guitar Soft/Рингтоны/mp3/DJ/Кино