Аккорды, Текст песни группы - слова песен и ноты, Табулатуры

0
1
2
3
4
5
6
7
8
9
A
B
C
D
E
F
G
H
I
J
K
L
M
N
O
P
Q
R
S
T
U
V
W
X
Y
Z
А
Б
В
Г
Д
Е
Ж
З
И
К
Л
М
Н
О
П
Р
С
Т
У
Ф
Х
Ц
Ч
Ш
Ы
Э
Ю
Я

Аккорды, табы и тексты песен Rammstein - слова песни Adios

 Intro
G|--------------------------|---10--10--10--10/-12--12--12--7--|
D|--8--8--8--8--8--8--8--8--|---10--10--10--10/-12--12--12--7--|
A|--8--8--8--8--8--8--8--8--|---8---8---8---8/--10--10--10--5--|
D|--8--8--8--8--8--8--8--8--|----------------------------------|

G|--7--7--7--7--7/-5--5/-4--|
D|--7--7--7--7--7/-5--5/-4--|
A|--5--5--5--5--5/-3--3/-2--|
D|--------------------------|

 После Интро и в Куплете(в куплете только начало).
G|---5-7---------------------|---------------------------------|
D|-3-5-7---------------------|---------------------------------|
A|-3-3-5-------------3h5-----|---------3h5---------------------|
D|-3-----0-0-0-0-0-0-----0-0-|-0-0-0-0-----0-0-0-0-0-0-0-0-0-0-|

 Distorted припев (Nichts...)
G|--------------------------|
D|--8--8--8--8--8--8--8--8--|
A|--8--8--8--8--8--8--8--8--|
D|--8--8--8--8--8--8--8--8--|

G--10--10--10--10/-12--12--12--7--|----7--7--7--7--7/-5--5/-4--|
D--10--10--10--10/-12--12--12--7--|----7--7--7--7--7/-5--5/-4--|
A--8---8---8---8/--10--10--10--5--|----5--5--5--5--5/-3--3/-2--|
D---------------------------------|----------------------------|

Аккорды, табулатуры, табы, переборы, тексты песен

 

Текст песни/GTP tabs/Guitar Soft/Рингтоны/mp3/DJ/Кино