Аккорды, Текст песни группы - слова песен и ноты, Табулатуры

0
1
2
3
4
5
6
7
8
9
A
B
C
D
E
F
G
H
I
J
K
L
M
N
O
P
Q
R
S
T
U
V
W
X
Y
Z
А
Б
В
Г
Д
Е
Ж
З
И
К
Л
М
Н
О
П
Р
С
Т
У
Ф
Х
Ц
Ч
Ш
Ы
Э
Ю
Я

Аккорды, табы и тексты песен Смысл Жизни - слова песни Внезапная любовь

Внезапная любовь.    
   Am    Am   Em  Em   Am   Am   Em
e|-------------------------------------  
B|-1-1--1-1--0-0--0-0--1-1--1-1--0-0-0- 
G|-2-2--2-2--1-1--1-1--2-2--2-2--1-1-1- 
D|------------------------------------- }2раза  
A|0----0----2----2-----0----0---2------   
E|-------------------------------------  
Am            E   
Это случилось прошлой зимой,
Am                  E 
Могло и случится не только со мной.
     Am             E
Если это настигнуло и уже вас,
Am                    E  
Вспомнить об этом настал этот час.

   Am    Am   Em  Em   Am   Am   Em
e|-------------------------------------  
B|-1-1--1-1--0-0--0-0--1-1--1-1--0-0-0-
G|-2-2--2-2--1-1--1-1--2-2--2-2--1-1-1- 
D|------------------------------------- }2раза  
A|0----0----2----2-----0----0---2------   
E|------------------------------------- 

Я просто решил тогда погулять, 
Не думал в тот день я тебя от искать.
Вообще не хотел ни кого я любить
Без тебя не могу щяс и дня я прожить!

 Припев:
C                 G
О еслиб не смог тебя я найти,
C                     G
О что бы ещё мне пришлося пройти?
C                   G
Как рад что могу тебя я любить,
С                      G
Ни когда ни когда мне тебя не забыть...


Я просто шёл о чём-то мечтал,
И тут внезапно тебя повстричал.
Я просто встал и осталбинел,
Такую найти всегда я хотел!

Припев:

Голубые глаза и божественный рот,
О чём раньше думал я идиот?
Ни как не могу я к ней подойти, 
Просто ни как слов не найти...

Припев:

Духу набрался и к ней подошёл. 
Так мол и так в вас я влюблён.
А ты сказала слушай ведь я, 
Лишь ты появился влюбилась в тебя...

Припев:

Хочу в заключение фразу сказать:
Не надо думать не надо страдать,
А сразу сказать ей всё рассказать...

  Am    Em
e|------------
B|-1-1--0-0-0-
G|-2-2--1-1-1-
D|------------
A|0----2------
E|------------

Слышиш ты о любви только первый лишь раз, 
То камунибуть спой этот самый рассказ...

   Am    Am   Em  Em   Am   Am   Em
    e|-------------------------------------  
    B|-1-1--1-1--0-0--0-0--1-1--1-1--0-0-0-
    G|-2-2--2-2--1-1--1-1--2-2--2-2--1-1-1- 
    D|-------------------------------------  }2раза  
    A|0----0----2----2-----0----0---2------   
    E|------------------------------------- 

p.s.(Группа "Смысл Жизни" А именно Щёголев Дмитрий выражает
Огромную благодрность Соловых Лене г.Бийск - За
Вдохновение на создание этой песни.)!!!
 

Аккорды, табулатуры, табы, переборы, тексты песен

 

Табы, тексты и слова песен

GTP Pro Tabs

Guitar pro tabs, GTP
Текст песни/GTP tabs/Guitar Soft/Рингтоны/mp3/DJ/Кино