, - ,

0
1
2
3
4
5
6
7
8
9
A
B
C
D
E
F
G
H
I
J
K
L
M
N
O
P
Q
R
S
T
U
V
W
X
Y
Z

, MarilynManson - Sweet Dreams -

Sweet Dreams (ARE MADE OF THIS)

!		Here is the main riff with the rhythm chords played behind it:
>		  C               G#      G
		[E---------------------------------
		B---------------------------------
		G---------------------------------
		D-----5---6---5-------------------
		A-3-3---3---3---3-----6/8-----5/6-
		E-----------------4-4-----3-3-----]

!		Then he plays something like this, sorta like a chorus:
>		G# G# G# G# G# G# G# G#
>		G# G# G# G# G# G# G G
>		A A A A A A A A
>		G# G# G# G# G# G# G#G
>		G# G# G# G# G# G# G# G#
>		G G G G G G G G A

!		The solo parts I couldn’t figure out, but if you know them have fun!!

-

Intro:		[E1---------------------------
		B----------------------------
		G-----------2----3----2----
		D---0----0----0----0----0-
		A----------------------------
		E-----------------------------

		E1------------------------
		B--------------------------
		G-----------------------0-
		D-----------3-------------
		A---1----1----0----0----
		E--------------------------]

Subject:	[E1---------------------------
		B----------------------------
		G---3----5----7----5----3-
		D---3----5----7----5----3-
		A---1----2----5----2----1-
		E----------------------------]

!		Subject opaec o eo Intro
!		a a Subject e ee coe eo

Solo:		[E1-6----8----11----8----6-----------------
		B--------------------------7---------------
		G----------------------------5----3----5---
		D----------------------------------------3-
		A------------------------------------------
		E------------------------------------------]
/GTP tabs/Guitar Soft//mp3/DJ/